Sponsored

PopAds.net - The Best Popunder Adnetwork

Home » » Dewa - Pupus (Solo Tab)

Dewa - Pupus (Solo Tab)

G D/F# Em C
e|---------------------------------------------------------------|
B|---------------------------------------------------------------|
G|----------------------4--7--4---4-----4--------------------5-7-|
D|-----------4h5p4---4h7--------7---------7-5-----5------5-7-----|
A|------5--7----------------------------------5h7----------------|
E|--5h7----------------------------------------------------------|

C/B Am G
e|---------------------------------------------------------------|
B|--5-7h8-7--5—5h7p5-----------------------11--13--15------------|
G|------------------7-----55-------------------------------------|
D|---------------------------99-77-55----12--13--15--15----------|
A|---------------------------------------------------------------|
E|---------------------------------------------------------------|

D/F# Em C C/B
e|---------------------------------------------------------------|
B|----11--13--11------------------------------------10-----------|
G|--------------12--4p2h-------7-9---9/12-----7-9----------------|
D|--12--13--12--------------5/9-9--9-------5/9-9--9--------------|
A|---------------------------------------------------------------|
E|---------------------------------------------------------------|

Am
e|---------------------------------------------------------------|
B|---------10b12-12-12-12-12-12r10-10-8h10p8---------------------|
G|-----7-9—------------------------------------------------------|
D|--5/9-9-9------------------------------------------------------|
A|---------------------------------------------------------------|
E|---------------------------------------------------------------|

G D/F# em
e|---------------------------------------10----12----10----12----|
B|-----------------------12----------------12----12----12----12--|
G|--------9-12---------9---12---------12-----12----12----12----12|
D|-7/9-12-------7/9-12---------7/9-12----------------------------|
A|---------------------------------------------------------------|
E|---------------------------------------------------------------|

C C/B Am
e|-----------------------9/12-15-12---12-12-12-12-10-10----------|
B|-10b11-11-11-11r10-8----------------------------------10-10/12-|
G|---------------------------------------------------------------|
D|---------------------------------------------------------------|
A|---------------------------------------------------------------|
E|---------------------------------------------------------------|

G D/F# Em C
e|------15---19--19--19--19--19-19-19-19-19-19---------22--------|
B|-12/15--15-------------------------------------15-19-----------|
G|---------------------------------------------------------------|
D|---------------------------------------------------------------|
A|---------------------------------------------------------------|
E|---------------------------------------------------------------|

C/B Am G
e|-21-20-19-18-15-15/17-15-12---17-15-12-15-10-------------------|
B|---------------------------------------------------------------|
G|---------------------------------------------------------------|
D|---------------------------------------------------------------|
A|---------------------------------------------------------------|
E|---------------------------------------------------------------|

| b bend
| r Release bend
| / slide up
| h hammer-on
| p pull-off

Solo in the middle of the song, after the 2nd refrain

G D/F# Em
e|---------------------------------------------------------------|
B|-12-10-12-----10----10---------10------------------------------|
G|-----------------12---------12----11-12-9-11-------------------|
D|----------12-----------12--------------------12----------------|
A|------------------------------------------------10-------------|
E|---------------------------------------------------------------|
Dewa - Pupus (Solo Tab)

   C            C/B          Am 
e|---------------------------------------------------------------|
B|---------------------------------------------------------------|
G|-9-11-12-9------11-12------------------------------------------|
D|-------------12-------9--10-12-9-10----9-----------------------|
A|------------------------------------12---10-12-----------------|
E|---------------------------------------------------------------|
   
   D          Dsus       D            Dsus
e|---------------------------------------------------------------|
B|--------------------------------------10-----------------------|
G|------9----------11-9--------11-9--12----11-12-----------------|
D|--------12-----------------------------------------------------|
A|-9-12-------9-12--------9-12-----------------------------------|
E|---------------------------------------------------------------|

  Em  C         Em  C      Em D
e|---------------------------------------------------------------|
B|-12-13-13---12-13-13---12-11-11--------------------------------|
G|---------------------------------------------------------------|
D|---------------------------------------------------------------|
A|---------------------------------------------------------------|
E|---------------------------------------------------------------|
Share this article :

0 komentar:

Followers

Fans Page

US Official Online Casino Directory

Searching for the most innovative online casinos on the internet? Visit https://onlinecasino.us for more details.

Selamat Datang Di Blog Koleksi Lirik Lagu Plus Kunci Gitar... Sebuah blog yang berisi lirik lagu yang dilengkapi dengan kunci gitar..

Koleksi Chord Baru

Label Penyanyi/Band

Blog Archive

Rank Relmax Top

Bloglog Koleksi

Koleksi Your Backlinks

 
Support : Your Link | Your Link | Your Link
Copyright © 2013. Koleksi Lirik Lagu Plus Kunci Gitar - All Rights Reserved
Template Created by Creating Website Published by Mas Template
Proudly powered by Blogger