Sponsored

PopAds.net - The Best Popunder Adnetwork

Home » » Pas Band - Jengah (Bas Tab)

Pas Band - Jengah (Bas Tab)

              S E  E.  S E  Q    E.     S E  E.  S E  Q    E.    
F#||-------|-------------------------|-------------------------| 
C#||-------|-------------------------|-------------------------| 
G#||-------|--2-2------2-2-----------|--2-2------2-2-----------| 
D#||-------|-------------------------|-------------------------| 


  S E  E.  S E  Q    E.     S E  E.  S E  E  S S S S S   
-------------------------|-----------------------------| 
-------------------------|-----------------------------| 
-------------------------|-----------------------------| 
--3-3------3-3-----------|--3-3------3-3-----0-3-3-5-5-| 


  S E  E.  S E  E.  S S S S    S E  E.  S E  E  S S S S S   
----------------------------|-----------------------------| 
----------------------------|-----------------------------| 
--2-2------2-2------2-2-0-2-|--2-2------2-2-----2-4-4-5-5-| 
----------------------------|-----------------------------| 


  S E  E.  S E  E.  S S S S    S E  E.  S E  E  S S S S S   
----------------------------|-----------------------------| 
----------------------------|-----------------------------| 
----------------------------|-----------------------------| 
--3-3------3-3------3-3-0-0-|--3-3------3-3-----0-3-3-5-5-| 


  S E  E.  S E  E.  S S S S    S E  E.  S E  E  S S S S S   
----------------------------|-----------------------------| 
----------------------------|-----------------------------| 
--2-2------2-2--------0-0-0-|--2-2------2-2-----2-4-4-5-5-| 
----------------------------|-----------------------------| 


  S E  E.  S E  E.  S S S S    S E  E.  S E  E  S S S S S   
----------------------------|-----------------------------| 
----------------------------|-----------------------------| 
----------------------------|-----------------------------| 
--3-3------3-3--------0-0-0-|--3-3------3-3-----0-3-3-5-5-| 


  S E  E.  S E  E.  S S S S    S E  E.  S E  E  S S S S S   
----------------------------|-----------------------------| 
----------------------------|-----------------------------| 
--2-2------2-2--------0-0-0-|--2-2------2-2-----2-4-4-5-5-| 
----------------------------|-----------------------------| 


  S E  E.  S E  E.  S S S S    S E  E.  S E  E  S S S S S   
----------------------------|-----------------------------| 
----------------------------|-----------------------------| 
----------------------------|-----------------------------| 
--3-3------3-3--------0-0-0-|--3-3------3-3-----0-3-3-5-5-| 


  E  E  E  E  E  E  S S S S    E  E  E  E  E  E  S S S S   
----------------------------|----------------------------| 
----------------------------|----------------------------| 
--2--2--2--2--2--2--4-4-5-5-|----------------------------| 
----------------------------|--3--3--3--3--3--3--5-5-7-7-| 


  E  E  E  E  E  E  E  E     E  E  E  E  E  E  E  E    
--------------------------|--------------------------| 
--------------------------|--------------------------| 
--------------------------|--------------------------| 
--0--0--0--0--0--0--0--0--|--5--5--5--5--5--5--6--6--| 


  E  E  E  E  E  E  S S S S    E  E  E  E  E  E  S S S S   
----------------------------|----------------------------| 
----------------------------|----------------------------| 
--2--2--2--2--2--2--4-4-5-5-|----------------------------| 
----------------------------|--3--3--3--3--3--3--5-5-7-7-| 


  E  E  E  E  E  E  E  E     E  E  E  E  E  E  E  E    
--------------------------|--------------------------| 
--------------------------|--------------------------| 
--------------------------|--------------------------| 
--0--0--0--0--0--0--0--0--|--5--5--5--5--5--5--6--6--| 


  S E  E.  S E  E.  S S S S    S E  E.  S E  E  S S S S S   
----------------------------|-----------------------------| 
----------------------------|-----------------------------| 
--2-2------2-2------2-2-0-2-|--2-2------2-2-----2-4-4-5-5-| 
----------------------------|-----------------------------| 


  S E  E.  S E  E.  S S S S    S E  E.  S E  E  S S S S S   
----------------------------|-----------------------------| 
----------------------------|-----------------------------| 
----------------------------|-----------------------------| 
--3-3------3-3------3-3-0-0-|--3-3------3-3-----0-3-3-5-5-| 


  S E  E.  S E  E.  S S S S    S E  E.  S E  E  S S S S S   
----------------------------|-----------------------------| 
----------------------------|-----------------------------| 
--2-2------2-2--------0-0-0-|--2-2------2-2-----2-4-4-5-5-| 
----------------------------|-----------------------------| 


  S E  E.  S E  E.  S S S S    S E  E.  S E  E  S S S S S   
----------------------------|-----------------------------| 
----------------------------|-----------------------------| 
----------------------------|-----------------------------| 
--3-3------3-3--------0-0-0-|--3-3------3-3-----0-3-3-5-5-| 


  S E  E.  S E  E.  S S S S    S E  E.  S E  E  S S S S S   
----------------------------|-----------------------------| 
----------------------------|-----------------------------| 
--2-2------2-2--------0-0-0-|--2-2------2-2-----2-4-4-5-5-| 
----------------------------|-----------------------------| 


  S E  E.  S E  E.  S S S S    S E  E.  S E  E  S S S S S   
----------------------------|-----------------------------| 
----------------------------|-----------------------------| 
----------------------------|-----------------------------| 
--3-3------3-3--------0-0-0-|--3-3------3-3-----0-3-3-5-5-| 


  E  E  E  E  E  E  S S S S    E  E  E  E  E  E  S S S S   
----------------------------|----------------------------| 
----------------------------|----------------------------| 
--2--2--2--2--2--2--4-4-5-5-|----------------------------| 
----------------------------|--3--3--3--3--3--3--5-5-7-7-| 


  E  E  E  E  E  E  E  E     E  E  E  E  E  E  E  E    
--------------------------|--------------------------| 
--------------------------|--------------------------| 
--------------------------|--------------------------| 
--0--0--0--0--0--0--0--0--|--5--5--5--5--5--5--6--6--| 


  E  E  E  E  E  E  S S S S    E  E  E  E  E  E  S S S S   
----------------------------|----------------------------| 
----------------------------|----------------------------| 
--2--2--2--2--2--2--4-4-5-5-|----------------------------| 
----------------------------|--3--3--3--3--3--3--5-5-7-7-| 


  E  E  E  E  E  E  E  E     E  E  E  E  E  E  E  E     H.           E  E    
--------------------------|--------------------------|---------------------| 
--------------------------|--------------------------|---------------------| 
--------------------------|--------------------------|--2------------4--5--| 
--0--0--0--0--0--0--0--0--|--5--5--5--5--5--5--6--6--|---------------------| 


  H.           E  E     W                   E  E  E  E  E  E  E  E    
---------------------|-------------------|--------------------------| 
---------------------|-------------------|--------------------------| 
---------------------|-------------------|--------------------------| 
--3------------5--7--|--0----------------|--5--5--5--5--5--5--6--6--| 


  S S S S S S S S S S S S S S S S    S S S S S S S S S S S S S S S S   
----------------------------------|----------------------------------| 
----------------------------------|----------------------------------| 
--2-2-2-2-2-2-2-2-2-2-2-2-4-4-5-5-|----------------------------------| 
----------------------------------|--3-3-3-3-3-3-3-3-3-3-3-3-5-5-7-7-| 


  S S S S S S S S S S S S S S S S    S S S S S S S S S S S S S S S S   
----------------------------------|----------------------------------| 
----------------------------------|----------------------------------| 
----------------------------------|----------------------------------| 
--0-0-0-0-0-0-0-0-0-0-0-0-0-0-0-0-|--5-5-5-5-5-5-5-5-5-5-5-5-6-6-6-6-| 


  S S S S S S S S S S S S S S S S    S S S S S S S S S S S S S S S S   
----------------------------------|----------------------------------| 
----------------------------------|----------------------------------| 
--2-2-2-2-2-2-2-2-2-2-2-2-4-4-5-5-|----------------------------------| 
----------------------------------|--3-3-3-3-3-3-3-3-3-3-3-3-5-5-7-7-| 


  S S S S S S S S S S S S S S S S    S S S S S S S S S S S S S S S S   
----------------------------------|----------------------------------| 
----------------------------------|----------------------------------| 
----------------------------------|----------------------------------| 
--0-0-0-0-0-0-0-0-0-0-0-0-0-0-0-0-|--5-5-5-5-5-5-5-5-5-5-5-5-6-6-6-6-| 


  S S S S S S S S S S S S S S S S    S S S S S S S S S S S S S S S S   
----------------------------------|----------------------------------| 
----------------------------------|----------------------------------| 
--2-2-2-2-2-2-2-2-2-2-2-2-4-4-5-5-|----------------------------------| 
----------------------------------|--3-3-3-3-3-3-3-3-3-3-3-3-5-5-7-7-| 


  S S S S S S S S S S S S S S S S    S S S S S S S S S S S S S S S S             
----------------------------------|----------------------------------|----|----| 
----------------------------------|----------------------------------|----|----| 
----------------------------------|----------------------------------|----|----| 
--0-0-0-0-0-0-0-0-0-0-0-0-0-0-0-0-|--5-5-5-5-5-5-5-5-5-5-5-5-6-6-6-6-|----|----| 


       H        S S S S S S S S    S E  E.  S E  E.  S S S S   
----|---------------------------|----------------------------| 
----|---------------------------|----------------------------| 
----|---------------------------|--2-2------2-2--------0-0-0-| 
----|-----------3-3-3-3-5-5-5-5-|----------------------------| 


  S E  E.  S E  E  S S S S S    S E  E.  S E  E.  S S S S   
-----------------------------|----------------------------| 
-----------------------------|----------------------------| 
--2-2------2-2-----2-4-4-5-5-|----------------------------| 
-----------------------------|--3-3------3-3--------0-0-0-| 


  S E  E.  S E  E  S S S S S    S E  E.  S E  E.  S S S S   
-----------------------------|----------------------------| 
-----------------------------|----------------------------| 
-----------------------------|--2-2------2-2--------0-0-0-| 
--3-3------3-3-----0-3-3-5-5-|----------------------------| 


  S E  E.  S E  E  S S S S S    S E  E.  S E  E.  S S S S   
-----------------------------|----------------------------| 
-----------------------------|----------------------------| 
--2-2------2-2-----2-4-4-5-5-|----------------------------| 
-----------------------------|--3-3------3-3--------0-0-0-| 


  S E  E.  S E  E  S S S S S    E  E  E  E  E  E  S S S S   
-----------------------------|----------------------------| 
-----------------------------|----------------------------| 
-----------------------------|--2--2--2--2--2--2--4-4-5-5-| 
--3-3------3-3-----0-3-3-5-5-|----------------------------| 


  E  E  E  E  E  E  S S S S    E  E  E  E  E  E  E  E    
----------------------------|--------------------------| 
----------------------------|--------------------------| 
----------------------------|--------------------------| 
--3--3--3--3--3--3--5-5-7-7-|--0--0--0--0--0--0--0--0--| 


  E  E  E  E  E  E  E  E     E  E  E  E  E  E  S S S S   
--------------------------|----------------------------| 
--------------------------|----------------------------| 
--------------------------|--2--2--2--2--2--2--4-4-5-5-| 
--5--5--5--5--5--5--6--6--|----------------------------| 


  E  E  E  E  E  E  S S S S    E  E  E  E  E  E  E  E    
----------------------------|--------------------------| 
----------------------------|--------------------------| 
----------------------------|--------------------------| 
--3--3--3--3--3--3--5-5-7-7-|--0--0--0--0--0--0--0--0--| 


  E  E  E  E  E  E  E  E     E  E  E  E  E  E  S S S S   
--------------------------|----------------------------| 
--------------------------|----------------------------| 
--------------------------|--2--2--2--2--2--2--4-4-5-5-| 
--5--5--5--5--5--5--6--6--|----------------------------| 


  E  E  E  E  E  E  S S S S    E  E  E  E  E  E  E  E    
----------------------------|--------------------------| 
----------------------------|--------------------------| 
----------------------------|--------------------------| 
--3--3--3--3--3--3--5-5-7-7-|--0--0--0--0--0--0--0--0--| 


  E  E  E  E  E  E  E  E     E  E  E  E  E  E  S S S S   
--------------------------|----------------------------| 
--------------------------|----------------------------| 
--------------------------|--2--2--2--2--2--2--4-4-5-5-| 
--5--5--5--5--5--5--6--6--|----------------------------| 


  E  E  E  E  E  E  S S S S    E  E  E  E  E  E  E  E    
----------------------------|--------------------------| 
----------------------------|--------------------------| 
----------------------------|--------------------------| 
--3--3--3--3--3--3--5-5-7-7-|--0--0--0--0--0--0--0--0--| 


  E  E  E  E  E  E  E  E     E  E  E  E  E  E  S S S S   
--------------------------|----------------------------| 
--------------------------|----------------------------| 
--------------------------|--2--2--2--2--2--2--4-4-5-5-| 
--5--5--5--5--5--5--6--6--|----------------------------| 


  E  E  E  E  E  E  S S S S    E  E  E  E  E  E  E  E    
----------------------------|--------------------------| 
----------------------------|--------------------------| 
----------------------------|--------------------------| 
--3--3--3--3--3--3--5-5-7-7-|--0--0--0--0--0--0--0--0--| 


  E  E  E  E  E  E  E  E     E  E  E  E  E  E  S S S S   
--------------------------|----------------------------| 
--------------------------|----------------------------| 
--------------------------|--2--2--2--2--2--2--4-4-5-5-| 
--5--5--5--5--5--5--6--6--|----------------------------| 


  E  E  E  E  E  E  S S S S    E  E  E  E  E  E  E  E    
----------------------------|--------------------------| 
----------------------------|--------------------------| 
----------------------------|--------------------------| 
--3--3--3--3--3--3--5-5-7-7-|--0--0--0--0--0--0--0--0--| 


  E  E  E  E  E  E  E  E           
--------------------------|-----|| 
--------------------------|-----|| 
--------------------------|-----|| 
--5--5--5--5--5--5--6--6--|-----||
Share this article :

Followers

Fans Page

US Official Online Casino Directory

Searching for the most innovative online casinos on the internet? Visit https://onlinecasino.us for more details.

Selamat Datang Di Blog Koleksi Lirik Lagu Plus Kunci Gitar... Sebuah blog yang berisi lirik lagu yang dilengkapi dengan kunci gitar..

Koleksi Chord Baru

Label Penyanyi/Band

Blog Archive

Rank Relmax Top

Bloglog Koleksi

Koleksi Your Backlinks

 
Support : Your Link | Your Link | Your Link
Copyright © 2013. Koleksi Lirik Lagu Plus Kunci Gitar - All Rights Reserved
Template Created by Creating Website Published by Mas Template
Proudly powered by Blogger